crazyapple

Male
from Santa Monica, CA

  • Activity

    • ZOMG Tab of the Week 2

      12 years ago

      crazyapple

      Blah blah blah, you know the drill.

      Uber Easy Tab
      E-----------------|------------------|----------------------------|-------------|
      B-----------------|------------------|----------------------------|-------------|
      G-----------------|------------------|----------------------------|-------------|
      D-x-7-----------5-|-7---------7------|---4-2----------------------|-4-2---------|
      A-x-5-x-x-x-5-5-3-|-5-x-x-x-x-5-7-2--|-------4-3-2-0--------0-x-x-|-----4-3-2-0-|
      E-----------------|-------------5-0--|---------------2~-0-2---x-x-|-------------|

      E--------------|--------------------------|----------------------------||-------|
      B--------------|--------------------------|---------------------------*||-------|
      G--------------|--------------------------|----------------------------||-------|
      D--------------|-4-2----------------------|-----2-------4---2----------||-4-2---|
      A----0-2---x-x-|-----4-3-2-0--------0-x-x-|-2-4---2/3-4---4---3-2-0---*||-----4-|
      E-2~-----0-x-x-|-------------2~-0-2---x-x-|-------------------------2~-||-------|

      E--------------------|--------------------------|--------------------------|---|
      B--------------------|--------------------------|--------------------------|---|
      G--------------------|--------------------------|--------------------------|---|
      D--------------------|-4-2----------------------|-4-2----------------------|---|
      A-3-2-0--------0-x-x-|-----4-3-2-0----0-2---x-x-|-----4-3-2-0--------0-x-x-|-2-|
      E-------2~-0-2---x-x-|-------------2~-----0-x-x-|-------------2~-0-2---x-x-|---|

      E--------------------------|-----0---0-------0---|---0-0-------------|-----0---|
      B--------------------------|-----0-----0-3b4---0-|-------0-3b4--1--3-|-----0---|
      G--------------------------|---------------------|--------------0--2-|---------|
      D---2-------4---2----------|-2-------------------|-2-----------------|-2-------|
      A-4---2/3-4---4---3-2-0----|-2-------------------|-2-----------------|-2-------|
      E-----------------------2~-|-0-------------------|-0-----------------|-0-------|

      E-0-------0-|-3p0-------0-0------------------|-----0---0-------0-0-|---0-0------|
      B---0-3b4---|-----0-3b4-----3-0-0-0----------|-----0-----0-3b4-----|-------0--1-|
      G-----------|-----------------------4--------|---------------------|----------0-|
      D-----------|-----------------------4--------|-2-------------------|-2----------|
      A-----------|-----------------------2--------|-2-------------------|-2----------|
      E-----------|--------------------------------|-0-------------------|-0----------|

      E----|-----0---0-------0-0-|-3p0-0-0-0-0-0---------|-----------------------|---|
      B--3-|-----0-----0-3b4-----|-----0-0-0-0-0---------|-----------------------|---|
      G--2-|---------------------|--------------------2--|-7---------7-----------|---|
      D----|-2-------------------|-----------------5--2--|-7-x-x-x-x-7-----7-7-5-|-7-|
      A----|-2-------------------|-----------------5--0--|-5-x-x-x-x-5-x-x-5-5-3-|-5-|
      E----|-0-------------------|---------------0-3-----|-----------------------|---|

      E--------------------|-------------------------|-----------------|-------------|
      B--------------------|-------------------------|-----------------|-------------|
      G--------------------|-------------------------|-----------------|---7---------|
      D-x-x-x-x-7-----0-10-|-7-x-x-x-x-7-----------5-|-7---------7-----|---7-x-x-x-x-|
      A-x-x-x-x-5-x-x-0--8-|-5-x-x-x-x-5-x-x-x-5-5-3-|-5-x-x-x-x-5-7-5-|---5-x-x-x-x-|
      E--------------------|-------------------------|-------------5-3-|-------------|

      E-------------|------------------------|-------------------------|-------------|
      B-------------|------------------------|-------------------------|-------------|
      G-7-----------|------------------------|-------------------------|-------------|
      D-7-----7-7-5-|-7-x-x-x-x-7-------0-10-|-7-x-x-x-x-7-----------5-|-7---------7-|
      A-5-x-x-5-5-3-|-5-x-x-x-x-5-x-x-x-0--8-|-5-x-x-x-x-5-x-x-x-5-5-3-|-5-x-x-x-x-5-|
      E-------------|------------------------|-------------------------|-------------|

      E------|----------------------------|--------------------------|----------------|
      B------|----------------------------|--------------------------|----------------|
      G------|----------------------------|--------------------------|----------------|
      D------|---4-2----------------------|-4-2----------------------|-4-2------------|
      A-7-2--|-------4-3-2-0--------0-x-x-|-----4-3-2-0----0-2---x-x-|-----4-3-2-0----|
      E-5-0--|---------------2~-0-2---x-x-|-------------2~-----0-x-x-|-----2b--------2~-|



      Hardish Tab
      I decided to make this one a little more advance.
      H. S E. +E +E S S S T T S S S S S S S S
      |-----------------------|--------------10---------------------------------------|
      |----------------13b15==|=(13)-(13)r------13-11-10h12p10----10------------------|
      |-7---------------------|--------------------------------13----13p10h13p10------|
      |-7---------------------|--------------------------------------------------12---|
      |-5---------------------|-------------------------------------------------------|
      |-----------------------|-------------------------------------------------------|

      |-18--17-20-18-17-20--18152018141916\15131814131613121512\11101411-9--
      |---------------------------------------------------------------------
      |---------------------------------------------------------------------
      |---------------------------------------------------------------------
      |---------------------------------------------------------------------
      |---------------------------------------------------------------------

      |-13-10\5h6p5---5------------------------------------------
      |-------------8---8-6-5---5--------------------------------
      |-----------------------7---7-5---5------------------------
      |-------------------------------8---8-7-8-7---------5------
      |-------------------------------------------7/8-7h8--------
      |----------------------------------------------------------

      | :) Enjoy

    • Guitar Lessoning

      12 years ago

      crazyapple

      I've decided to be nice and now I'm teaching people how to play guitar. -_-. And I'm not getting paid, but my plan is to teach the whole world to play guitar and then we will ambush rap and end it!!!!!!!!!!!!!!!!!!!!!!!!!!!!!!!!!!!!!!!!!!!!!!!ish


      Edit: I decided to give a Tab of the Week for now on. An easy one and a hard one.

      Easy Tab

      Intro
      E---------------------|
      B---------------------|
      G---------------------|x5
      D--------2-0----------|
      A--0-2-3---------3-2--|
      E------------3-0------|
      Palm Muted
      E---------------------|
      B---------------------|
      G---------------------|
      D---------------------|
      A---------------------|x7
      E-0--0-0--1-3---------|


      E---------------------|
      B---------------------|
      G---------------------|x8
      D-2--2-2--------------|
      A-2--2-2--------------|
      E-0--0-0--1-3---------|


      E-----------------------------------------------------------------------|
      B-----------------------------------------------------------------------|
      G------------------------------------------2-----5-------------7----5---|
      D-------------2-----2-----2-----2--2-----2-----5-------5-----7----5-----|
      A-----------2-----2-----2-----2---2----0-----3-------5-----5----3-------|
      E0 0 0 0 0------0-----0-----0----0-----------------3--------------------|
      Chrous
      E--------------------------------------| (x4)
      B--------------------------------------|
      G--------------------------------------|
      D-----7\-------3\-------5\-------------|
      A-----7\-------3\-------5\-------------|
      E-5-5-5\---1-1-1\---3-3-3\--0-3--------|

      Advanced Tab
      This one isn't that hard, it's a solo.
      e:----------------------------------------------------------------|
      B:--6(b7)--6(b7)--6p5---5-5--3--5p3-------------------------------|
      G:--------------------7-------------6---5--4--0--3----------------|
      D:--------------------------------------------------2h3p2h3p2h3---|
      A:----------------------------------------------------------------|
      E:----------------------------------------------------------------|

      e:--------------------------------7p6p5--7p5--7h8h9--13(b14)------|
      B:-------5--6(b7)--6(b7)--5h6h8-----------------------------------|
      G:-4h5h7----------------------------------------------------------|
      D:----------------------------------------------------------------|
      A:----------------------------------------------------------------|
      E:----------------------------------------------------------------|

      e:-13p11p10--11p10p8-6-5---5---------------------------------------|
      B:-----------------------8---8/11~-------3-3--3-3-3-3-----3-3------|
      G:-----------------------------------2h4--------------2h4----------|
      D:-----------------------------------------------------------------|
      A:-----------------------------------------------------------------|
      E:-----------------------------------------------------------------|

      e:-----------------------------------------------------------------10/12--|
      B:-5p3\2-----------5--7-------------------------------------h3h5h6--------|
      G:-------4--2--4h6----------------------------5h4h3h2h1/6h4---------------|
      D:------------------------------------4h2h1h3-----------------------------|
      A:------------------------------3h2h1-------------------------------------|
      E:------------------------3h2h1-------------------------------------------|

      It's a little messy, but I don't make tabs that often. Impress your friends, or your mom....

    • S.A.T's

      12 years ago

      crazyapple

      No not STDS. So don't make a witty comment of sorts. Yeah, so I'm not sure when they are, but I'm super nervous. I've been studying since the friggin summer. I only got a 1120 on the PSATS last year........

      Edit, it was 1120 or something. I'm gonna ask someone.

    • Yeah Uh

      13 years ago

      crazyapple

      I'm probably not going to be on for a while so yeah...

    • I'm tired of it.

      13 years ago

      crazyapple

      Look you can hate yourself I don't care. But spreading your depression to other people is really starting to piss me off. Not only in real life but on this website. I see countless pictures of people flipping the bird in a picture saying "Fuck you, I hate you". (There is a few exceptions but it has to stop).
      1060728473lms9.jpg
      Heres an example. As long as it doesn't say, I hate you, I'm totally okay with it.

    • Elder Scrolls IV: Oblivion

      in Forums > Elder Scrolls IV: Oblivion | Follow this topic

      crazyapple

      I don't have a 360, but I do have a good gaming card that supports Oblivion. I've only had it for about a month. And I like to chat with people about it. Like what guilds your in, level, race, etc. I'm a nord, and I'm in three guilds. The Dark Brotherhood, The Theives Guild, and The Blades. And also stuff about the areana. I just became grand champion. So feel free to chat and stuff.

      2 replies

    • Stuff To BUY

      13 years ago

      crazyapple

      OK, I got a lot of money. I want a new car and a new guitar :D. The car I want is a Mustang GT (which is totally possible) and a Gibson Les Paul Special! My friend whose in my band has one and there beutiful and play really nice. But I heard there almost 2K. Well heres pictures I took of the two I want.
      mustang-gt.jpg

      0406morocklespaul.jpg
      The Alpline white one is my friends. And the one to the right, (still with the tag on it), is the one I'm looking to buy.
      AND completly random, I've realized this years ago but didn't post it until now. Everyone knows the song Come as You Are by Nirvana. One phrase Kurt repeats is "No I don't have a gun". Which was not true. He had a Double Barrel Shotgun, And I hate all you people who said Courtney Love killed him, she didn't. Ok?

    • Songs heard 1000 times but...

      13 years ago

      crazyapple

      You don't know the band name or song, well here are some of them, if I forgot some tell me and I'll add them...

      Break On Through- The Doors You name it, car commercials, baseball games, etc. "Break on Through To The Other Side". Everyone heard this at least 5 times in there life. And if you haven't, you have, you just don't know it.

      Smoke on The Water-Deep Purple Everybody heard of the intro. And every guitarist should or does know how to play it. It's simple and catchy.

      Rape Me- Nirvana I'm pretty sure that in 1998 they played this on the radio maybe 5000 times. The weird thing was that In Utero was realesed in 1993. I don't really know.

      Rock n Roll- Led Zepplin Caddilac commercials, A-rods entrance, old Chillis Commercials. Most people have heard of this song, they just never knew what it was.



      Queen- Another One Bites The Dust Sometime in your life you've heard it. My 5 year old brother has heard this 50 times. And with this song you don't know were you will here it.

      Queen- We are the Champions Baseball games, football games, TV, movies, radios. Blah blah blah. I hate this song, I really like queen but this song is really annoying. [

      Queen-We Will Rock You If You havent heard this song, kill yourself. This is the type of song that you have heard of, but if you don't listin to music, you don't know the band.


      Liam Lynch- My United States of Whatever Yeah, this songs a joke, but I think everybodys heard a bit of it. Its a really cool and funny song though.

    • Learners Permitt''d

      13 years ago

      crazyapple

      I can now drive with lots of gay conditions and putting in my savings in my bank since I was 9 I have 13,000 dollers. My parents will double that. AND my job as a guitar teacher at Sound Beach Music gave me an extra 548 dollers. I spent most of the money from that. I have enough to leese a car thats up to 550 a MONTH. I could get a Mustang GT :D

    • Foo Fighters

      13 years ago

      crazyapple

      I all the sudden devoloped this huge liking of this band. The Colour And Shape is a great album that I had for years but didn't listen to. Every song is great, Monkey Wrench and Everlong are the best/.

  • About Me

  • Comments (184)

    • theblacknigh

      12 years ago

      Seriously.

    • Zack FIRST Member Star(s) Indication of membership status - One star is a FIRST member, two stars is Double Gold Zatch

      12 years ago

      That might hurt... smiley4.gif

    • goose69

      12 years ago

      no,i'm image making impared lol

    • Haylbays FIRST Member Star(s) Indication of membership status - One star is a FIRST member, two stars is Double Gold

      12 years ago

      I like way more music than that. Here, out of your favorite music, here is what I like.
      METALLICA, NIRVANA, Ozzy Osbourne, Eagle, Cheap Trick, Bush, Blue Oyster Cult, The Doors, The Who, The Offspring, 30 Seconds To Mars, Sum 41, Linkin Park, Jimi Hendrix, Van Halen, Boston AC/DC Foo Fighters, Red Hot Chilli Peppers, Led Zepplin, Incubus, Bad Religon, , , The Beatles, Queen, The Ramones, David Bowie, Guns N Roses, Pink Floyd, Areosmith, ZZ Top, Alice Cooper

      I have all of Sum 41's cds, a shit load of Blue Oyster Cult, The offspring, RHCP, Foo Fighters, and Queen on my iPod. I'm just too lazy to type all that out on my thingy. I like way more bands than that too. I'm just lazy. I even copied and pasted all those bands above.

    • BaileyTheKid

      12 years ago

      Nobody's been sold...yet.

    • Jengaship FIRST Member Star(s) Indication of membership status - One star is a FIRST member, two stars is Double Gold Travancore on DD

      12 years ago

      "Scandel" indeed.

      What exactly are you accusing me of making up?

    • kahnefan001

      12 years ago

      I blame her smiley0.gif

    • armoran

      12 years ago

      Yup Lol

    • armoran

      12 years ago

      Lol...
      you know...
      I knew that...
      yet I asked..
      Lol
      Thanks
      =D

    • obiwanshinob

      12 years ago

      haha, I used to rob the bank in monopoly.

    • stoob

      12 years ago

      ...what the crap is an sg?haha

    • brent05

      12 years ago

      to u

    • AeroChick

      12 years ago

      Tonight sucked, cause you suck :) :P Tehe |

    • Exos

      12 years ago

      Mortal flesh!

    • Martinez22

      12 years ago

      I'll be getting Splinter Cell: Double Agent today. First thing after school. I'll tell you how it plays later.

    • Martinez22

      12 years ago

      I reserved mine so I'll definitely get it tomorrow.

    • Martinez22

      12 years ago

      Yeah it is!

    • 427_stroker

      12 years ago

      none of them are knock offs... well, there's a Michael Kelly on the far left, but it's a nice one... Then a 1994 ESP KH2, a Lone Star strat with a 1980 SD-1 in the bridge, a 1960-something Yamaha acoustic, A 1982 Gibson Jeff Beck Standard Les Paul, and a Deluxe Strat.

    • ENGEN

      13 years ago

      the contest is on get your votes

    • hypeserver

      13 years ago

      Yeah that was back when I used Internet Explorer I use Firefox now.

    • armoran

      13 years ago

      lmfao done

    • armoran

      13 years ago

      remember to claim your prize dude

    • armoran

      13 years ago

      !!!!! REALY!!!!!

      THANKS FOR TELLING ME MAAAN!!!!

    • sleepingprsn

      13 years ago

      thanks! :)

    • sleepingprsn

      13 years ago

      the're ok but the're not the greatest

    • sleepingprsn

      13 years ago

      i wont bother u again with this unless i make it to the next roudnd but if u could spare some time could u vote here? :
      rvb.roosterteeth.com/members/journal/entry.php?id=1209203&page=6

    • armoran

      13 years ago

      oh,cool

    • armoran

      13 years ago

      yo, you on for the contest?

    • mdfq3

      13 years ago

      red bull is never fresh. Plus there are cheaper sources for the so-called "energy"

    • mdfq3

      13 years ago

      why yes I am.

    • armoran

      13 years ago

      cool, put me on your watch list..
      i may chnge the rules of the contest

    • mdfq3

      13 years ago

      there is some gay (as in involving gays, not gay as a perjorative) stuff in the bible, particularly descriptions of punishments for certain acts. Are you from samo?

    • archerchick

      13 years ago

      if you are saying I am just another one of those emo wanna be goth kids who hate the world, fine. I personally have passed my teen angst i hate everything phase in my life, ya know, now that I'm an adult, however I still think my quote is funny.

    • BielskiGAL

      13 years ago

      hey whats up?

    • bozz

      13 years ago

      ya

    • Nite_Maresz

      13 years ago

      Windmills and picking....lets see here...
      1986 happened to those!
      Master of Puppets and Reign in Blood happened
      HAHA!
      Rock On \m/
      -Alex.

    • BobbyRulZ924

      13 years ago

      nah, what I saw said it is slated for a '08 release.

    • SphinxGirl

      13 years ago

      My dog is a very well mannered dog and he does not hump pillows. smiley6.gif

    • hellboy1194

      13 years ago

      no*

    • hellboy1194

      13 years ago

      you have a point i cant read or write ...that means bo suicide notes

    • ENGEN

      13 years ago

      You are on a horse, galloping at a constant speed.
      On your right side is sharp drop off, and on your left side is an elephant traveling at the same speed as you. Directly in front of you is a galloping kangaroo and your horse is unable to overtake it.

      Behind you is a lion running at the same speed as you and the Kangaroo.
      What must you do to safely get out of this highly dangerous situation?

      If you do not know, see answer below.




















      Get your drunk ass off the merry-go-round!

    • halo_fangirl

      13 years ago

      You really don't like people do you? I see that feeling in you.

      plus 5 fuckin ditto! congrates!

    • hippygirl

      13 years ago

      OMgosh..yeah I had alot of free time...and even If I didnt I would still some how take a picture of them taking my windows lmoa

    • See_Jay

      13 years ago

      love the guitars

    • Maxx_Payne

      13 years ago

      check out my journal now. i fixed the images. thx for the comment.

    • cg1985

      13 years ago

      Strats are lightweight, and SG's are REALLY lightweight, I find that the tele is kind of a medium to heavy guitar, not too heavy. but it's one big un-carved block.

      I just love the tone.

    • cg1985

      13 years ago

      It was a gibson SG standard. Epi's suck in comparison.

      But personally, I disliked the SG, I'm not much for humbuckers, and I don't really like Rosewood fretboards for an electric. But I'm weird. so I sold the SD and picked up a Fender American Telecaster.

    • ENGEN

      13 years ago

      good more guitarist. add me to your friend list so you can help other guitarist

    • KungFu_Cat

      13 years ago

      i was thinking like doing a before and after picture but the after pic hasnt really changed from the before pic =P
      Yep...im lazy dam.....

    • hippygirl

      13 years ago

      They covered Master....woot woot

  • Questions

    No questions have been answered yet